ISO-10303-21;
HEADER;
FILE_DESCRIPTION (( 'STEP AP203' ),
    '1' );
FILE_NAME ('Q-QZWP-R4-12.7-405-M.STEP',
    '2020-12-23T01:23:48',
    ( '' ),
    ( '' ),
    'SwSTEP 2.0',
    'SolidWorks 2020',
    '' );
FILE_SCHEMA (( 'CONFIG_CONTROL_DESIGN' ));
ENDSEC;

DATA;
#1 = CARTESIAN_POINT ( 'NONE',  ( 3.000000000000000000, 12.69999999999999929, 0.000000000000000000 ) ) ;
#2 = VERTEX_POINT ( 'NONE', #223 ) ;
#3 = DIRECTION ( 'NONE',  ( -1.000000000000000000, -0.000000000000000000, -0.000000000000000000 ) ) ;
#4 = DIRECTION ( 'NONE',  ( -1.000000000000000000, -0.000000000000000000, -0.000000000000000000 ) ) ;
#5 = CYLINDRICAL_SURFACE ( 'NONE', #16, 12.69999999999999929 ) ;
#6 = FACE_OUTER_BOUND ( 'NONE', #279, .T. ) ;
#7 = CARTESIAN_POINT ( 'NONE',  ( -1.614212418857619014, 0.000000000000000000, 6.349999999999999645 ) ) ;
#8 = APPROVAL ( #86, 'UNSPECIFIED' ) ;
#9 = APPROVAL_DATE_TIME ( #239, #8 ) ;
#10 = MANIFOLD_SOLID_BREP ( 'Ðý×', #48 ) ;
#11 = AXIS2_PLACEMENT_3D ( 'NONE', #73, #30, #100 ) ;
#12 = EDGE_LOOP ( 'NONE', ( #311, #63, #78, #159 ) ) ;
#13 = PRODUCT_RELATED_PRODUCT_CATEGORY ( 'detail', '', ( #147 ) ) ;
#14 = PERSON_AND_ORGANIZATION ( #99, #187 ) ;
#15 = CIRCLE ( 'NONE', #333, 6.349999999999999645 ) ;
#16 = AXIS2_PLACEMENT_3D ( 'NONE', #204, #209, #105 ) ;
#17 =( NAMED_UNIT ( * ) PLANE_ANGLE_UNIT ( ) SI_UNIT ( $, .RADIAN. ) );
#18 = ORIENTED_EDGE ( 'NONE', *, *, #241, .F. ) ;
#19 = PLANE ( 'NONE',  #275 ) ;
#20 = ADVANCED_FACE ( 'NONE', ( #118, #62 ), #19, .F. ) ;
#21 = MECHANICAL_CONTEXT ( 'NONE', #34, 'mechanical' ) ;
#22 = CARTESIAN_POINT ( 'NONE',  ( 3.000000000000000888, 0.000000000000000000, 6.349999999999999645 ) ) ;
#23 = DIRECTION ( 'NONE',  ( 0.000000000000000000, 0.000000000000000000, 1.000000000000000000 ) ) ;
#24 = EDGE_LOOP ( 'NONE', ( #294, #283, #143, #245 ) ) ;
#25 = DIRECTION ( 'NONE',  ( 0.000000000000000000, 0.000000000000000000, 1.000000000000000000 ) ) ;
#26 = CARTESIAN_POINT ( 'NONE',  ( -1.614212418857619014, 7.776507174585692163E-16, -6.349999999999999645 ) ) ;
#27 = AXIS2_PLACEMENT_3D ( 'NONE', #194, #304, #221 ) ;
#28 = VECTOR ( 'NONE', #258, 1000.000000000000000 ) ;
#29 = LINE ( 'NONE', #7, #212 ) ;
#30 = DIRECTION ( 'NONE',  ( 1.000000000000000000, 0.000000000000000000, 0.000000000000000000 ) ) ;
#31 = CARTESIAN_POINT ( 'NONE',  ( -3.000000000000000000, 0.000000000000000000, 0.000000000000000000 ) ) ;
#32 = PERSON_AND_ORGANIZATION ( #99, #187 ) ;
#33 = AXIS2_PLACEMENT_3D ( 'NONE', #31, #4, #50 ) ;
#34 = APPLICATION_CONTEXT ( 'configuration controlled 3d designs of mechanical parts and assemblies' ) ;
#35 = ORIENTED_EDGE ( 'NONE', *, *, #236, .F. ) ;
#36 = CALENDAR_DATE ( 2020, 23, 12 ) ;
#37 = ADVANCED_FACE ( 'NONE', ( #98, #301 ), #155, .F. ) ;
#38 = LINE ( 'NONE', #95, #85 ) ;
#39 = DIRECTION ( 'NONE',  ( -1.000000000000000000, -0.000000000000000000, -0.000000000000000000 ) ) ;
#40 = ADVANCED_FACE ( 'NONE', ( #329 ), #44, .F. ) ;
#41 = DIRECTION ( 'NONE',  ( -1.000000000000000000, -0.000000000000000000, -0.000000000000000000 ) ) ;
#42 = ORIENTED_EDGE ( 'NONE', *, *, #135, .F. ) ;
#43 = APPROVAL_ROLE ( '' ) ;
#44 = CYLINDRICAL_SURFACE ( 'NONE', #178, 6.349999999999999645 ) ;
#45 = DIRECTION ( 'NONE',  ( -0.000000000000000000, 0.000000000000000000, 1.000000000000000000 ) ) ;
#46 = EDGE_CURVE ( 'NONE', #113, #80, #60, .T. ) ;
#47 = DIRECTION ( 'NONE',  ( 0.000000000000000000, 0.000000000000000000, 1.000000000000000000 ) ) ;
#48 = CLOSED_SHELL ( 'NONE', ( #228, #278, #210, #205, #40, #175, #37, #197, #20, #302 ) ) ;
#49 = DIRECTION ( 'NONE',  ( -1.000000000000000000, -0.000000000000000000, -0.000000000000000000 ) ) ;
#50 = DIRECTION ( 'NONE',  ( 0.000000000000000000, 0.000000000000000000, 1.000000000000000000 ) ) ;
#51 = DIRECTION ( 'NONE',  ( -1.000000000000000000, -0.000000000000000000, -0.000000000000000000 ) ) ;
#52 = CC_DESIGN_PERSON_AND_ORGANIZATION_ASSIGNMENT ( #247, #154, ( #70 ) ) ;
#53 = EDGE_CURVE ( 'NONE', #217, #113, #87, .T. ) ;
#54 = EDGE_CURVE ( 'NONE', #328, #88, #249, .T. ) ;
#55 = CIRCLE ( 'NONE', #259, 6.349999999999999645 ) ;
#56 = DATE_AND_TIME ( #77, #231 ) ;
#57 = CARTESIAN_POINT ( 'NONE',  ( 1.500000000000000888, 7.776507174585692163E-16, -6.349999999999999645 ) ) ;
#58 = DIRECTION ( 'NONE',  ( -1.000000000000000000, -0.000000000000000000, -0.000000000000000000 ) ) ;
#59 = DIRECTION ( 'NONE',  ( 0.000000000000000000, 0.000000000000000000, 1.000000000000000000 ) ) ;
#60 = CIRCLE ( 'NONE', #67, 12.69999999999999929 ) ;
#61 = CARTESIAN_POINT ( 'NONE',  ( -2.999999999999999556, 0.000000000000000000, 0.000000000000000000 ) ) ;
#62 = FACE_BOUND ( 'NONE', #193, .T. ) ;
#63 = ORIENTED_EDGE ( 'NONE', *, *, #236, .T. ) ;
#64 = COORDINATED_UNIVERSAL_TIME_OFFSET ( 8, 0, .AHEAD. ) ;
#65 = DIRECTION ( 'NONE',  ( -1.000000000000000000, -0.000000000000000000, -0.000000000000000000 ) ) ;
#66 = CIRCLE ( 'NONE', #33, 12.69999999999999929 ) ;
#67 = AXIS2_PLACEMENT_3D ( 'NONE', #150, #65, #25 ) ;
#68 = PLANE ( 'NONE',  #116 ) ;
#69 = DIRECTION ( 'NONE',  ( -1.000000000000000000, -0.000000000000000000, -0.000000000000000000 ) ) ;
#70 = SECURITY_CLASSIFICATION ( '', '', #142 ) ;
#71 = CARTESIAN_POINT ( 'NONE',  ( -1.500000000000000444, 7.776507174585692163E-16, -6.349999999999999645 ) ) ;
#72 = APPROVAL_PERSON_ORGANIZATION ( #32, #244, #270 ) ;
#73 = CARTESIAN_POINT ( 'NONE',  ( -1.500000000000000444, 0.000000000000000000, 0.000000000000000000 ) ) ;
#74 = EDGE_CURVE ( 'NONE', #174, #328, #38, .T. ) ;
#75 = ORIENTED_EDGE ( 'NONE', *, *, #309, .F. ) ;
#76 = DIRECTION ( 'NONE',  ( 0.000000000000000000, 0.000000000000000000, 1.000000000000000000 ) ) ;
#77 = CALENDAR_DATE ( 2020, 23, 12 ) ;
#78 = ORIENTED_EDGE ( 'NONE', *, *, #53, .T. ) ;
#79 = UNCERTAINTY_MEASURE_WITH_UNIT (LENGTH_MEASURE( 1.000000000000000082E-05 ), #117, 'distance_accuracy_value', 'NONE');
#80 = VERTEX_POINT ( 'NONE', #334 ) ;
#81 = APPLICATION_CONTEXT ( 'configuration controlled 3d designs of mechanical parts and assemblies' ) ;
#82 = AXIS2_PLACEMENT_3D ( 'NONE', #126, #230, #179 ) ;
#83 = COORDINATED_UNIVERSAL_TIME_OFFSET ( 8, 0, .AHEAD. ) ;
#84 = ORIENTED_EDGE ( 'NONE', *, *, #261, .T. ) ;
#85 = VECTOR ( 'NONE', #252, 1000.000000000000000 ) ;
#86 = APPROVAL_STATUS ( 'not_yet_approved' ) ;
#87 = LINE ( 'NONE', #327, #128 ) ;
#88 = VERTEX_POINT ( 'NONE', #198 ) ;
#89 =( NAMED_UNIT ( * ) SI_UNIT ( $, .STERADIAN. ) SOLID_ANGLE_UNIT ( ) );
#90 = ORIENTED_EDGE ( 'NONE', *, *, #151, .T. ) ;
#91 = PERSON_AND_ORGANIZATION ( #99, #187 ) ;
#92 = LINE ( 'NONE', #196, #171 ) ;
#93 = AXIS2_PLACEMENT_3D ( 'NONE', #260, #160, #313 ) ;
#94 = APPROVAL_DATE_TIME ( #225, #240 ) ;
#95 = CARTESIAN_POINT ( 'NONE',  ( -1.614212418857619014, 7.776507174585692163E-16, -6.349999999999999645 ) ) ;
#96 = PRODUCT_DEFINITION ( 'UNKNOWN', '', #237, #109 ) ;
#97 = DATE_TIME_ROLE ( 'classification_date' ) ;
#98 = FACE_BOUND ( 'NONE', #157, .T. ) ;
#99 = PERSON ( 'UNSPECIFIED', 'UNSPECIFIED', 'UNSPECIFIED', ('UNSPECIFIED'), ('UNSPECIFIED'), ('UNSPECIFIED') ) ;
#100 = DIRECTION ( 'NONE',  ( 0.000000000000000000, 0.000000000000000000, -1.000000000000000000 ) ) ;
#101 = AXIS2_PLACEMENT_3D ( 'NONE', #314, #320, #290 ) ;
#102 = FACE_OUTER_BOUND ( 'NONE', #12, .T. ) ;
#103 = EDGE_CURVE ( 'NONE', #217, #312, #266, .T. ) ;
#104 = CARTESIAN_POINT ( 'NONE',  ( -1.614212418857619014, 1.555301434917138433E-15, -12.69999999999999929 ) ) ;
#105 = DIRECTION ( 'NONE',  ( 0.000000000000000000, 0.000000000000000000, 1.000000000000000000 ) ) ;
#106 = AXIS2_PLACEMENT_3D ( 'NONE', #272, #220, #172 ) ;
#107 = CARTESIAN_POINT ( 'NONE',  ( -1.614212418857619014, 0.000000000000000000, 0.000000000000000000 ) ) ;
#108 = PERSON_AND_ORGANIZATION_ROLE ( 'creator' ) ;
#109 = DESIGN_CONTEXT ( 'detailed design', #81, 'design' ) ;
#110 = AXIS2_PLACEMENT_3D ( 'NONE', #107, #131, #127 ) ;
#111 = APPLICATION_PROTOCOL_DEFINITION ( 'international standard', 'config_control_design', 1994, #81 ) ;
#112 = CC_DESIGN_APPROVAL ( #240, ( #70 ) ) ;
#113 = VERTEX_POINT ( 'NONE', #305 ) ;
#114 = PERSON_AND_ORGANIZATION ( #99, #187 ) ;
#115 = ORIENTED_EDGE ( 'NONE', *, *, #151, .F. ) ;
#116 = AXIS2_PLACEMENT_3D ( 'NONE', #182, #202, #45 ) ;
#117 =( LENGTH_UNIT ( ) NAMED_UNIT ( * ) SI_UNIT ( .MILLI., .METRE. ) );
#118 = FACE_OUTER_BOUND ( 'NONE', #322, .T. ) ;
#119 = PRODUCT_DEFINITION_SHAPE ( 'NONE', 'NONE',  #96 ) ;
#120 = DIRECTION ( 'NONE',  ( 1.000000000000000000, 0.000000000000000000, 0.000000000000000000 ) ) ;
#121 = ORIENTED_EDGE ( 'NONE', *, *, #243, .T. ) ;
#122 = PERSON_AND_ORGANIZATION ( #99, #187 ) ;
#123 = CARTESIAN_POINT ( 'NONE',  ( -1.500000000000000444, 0.000000000000000000, 0.000000000000000000 ) ) ;
#124 = CALENDAR_DATE ( 2020, 23, 12 ) ;
#125 = VERTEX_POINT ( 'NONE', #22 ) ;
#126 = CARTESIAN_POINT ( 'NONE',  ( -1.614212418857619014, 0.000000000000000000, 0.000000000000000000 ) ) ;
#127 = DIRECTION ( 'NONE',  ( 0.000000000000000000, 0.000000000000000000, 1.000000000000000000 ) ) ;
#128 = VECTOR ( 'NONE', #58, 1000.000000000000000 ) ;
#129 = CARTESIAN_POINT ( 'NONE',  ( 3.000000000000000000, 0.000000000000000000, 12.69999999999999929 ) ) ;
#130 = DIRECTION ( 'NONE',  ( 0.000000000000000000, 0.000000000000000000, 1.000000000000000000 ) ) ;
#131 = DIRECTION ( 'NONE',  ( -1.000000000000000000, -0.000000000000000000, -0.000000000000000000 ) ) ;
#132 = ADVANCED_BREP_SHAPE_REPRESENTATION ( 'Q-QZWP-R4-12.7-405-M', ( #10, #224 ), #144 ) ;
#133 = APPLICATION_PROTOCOL_DEFINITION ( 'international standard', 'config_control_design', 1994, #34 ) ;
#134 = ORIENTED_EDGE ( 'NONE', *, *, #103, .T. ) ;
#135 = EDGE_CURVE ( 'NONE', #226, #280, #55, .T. ) ;
#136 = VECTOR ( 'NONE', #257, 1000.000000000000000 ) ;
#137 = CIRCLE ( 'NONE', #156, 6.349999999999999645 ) ;
#138 = ORIENTED_EDGE ( 'NONE', *, *, #74, .T. ) ;
#139 = EDGE_LOOP ( 'NONE', ( #75, #277 ) ) ;
#140 = EDGE_CURVE ( 'NONE', #280, #293, #92, .T. ) ;
#141 = COORDINATED_UNIVERSAL_TIME_OFFSET ( 8, 0, .AHEAD. ) ;
#142 = SECURITY_CLASSIFICATION_LEVEL ( 'unclassified' ) ;
#143 = ORIENTED_EDGE ( 'NONE', *, *, #152, .T. ) ;
#144 =( GEOMETRIC_REPRESENTATION_CONTEXT ( 3 ) GLOBAL_UNCERTAINTY_ASSIGNED_CONTEXT ( ( #79 ) ) GLOBAL_UNIT_ASSIGNED_CONTEXT ( ( #117, #17, #89 ) ) REPRESENTATION_CONTEXT ( 'NONE', 'WORKASPACE' ) );
#145 = CARTESIAN_POINT ( 'NONE',  ( 1.500000000000000888, 0.000000000000000000, 0.000000000000000000 ) ) ;
#146 = CARTESIAN_POINT ( 'NONE',  ( 3.000000000000000000, 0.000000000000000000, 0.000000000000000000 ) ) ;
#147 = PRODUCT ( 'Q-QZWP-R4-12.7-405-M', 'Q-QZWP-R4-12.7-405-M', '', ( #21 ) ) ;
#148 = ORIENTED_EDGE ( 'NONE', *, *, #261, .F. ) ;
#149 = DIRECTION ( 'NONE',  ( 0.000000000000000000, 0.000000000000000000, 1.000000000000000000 ) ) ;
#150 = CARTESIAN_POINT ( 'NONE',  ( -3.000000000000000000, 0.000000000000000000, 0.000000000000000000 ) ) ;
#151 = EDGE_CURVE ( 'NONE', #226, #2, #161, .T. ) ;
#152 = EDGE_CURVE ( 'NONE', #125, #88, #29, .T. ) ;
#153 = ORIENTED_EDGE ( 'NONE', *, *, #152, .F. ) ;
#154 = PERSON_AND_ORGANIZATION_ROLE ( 'classification_officer' ) ;
#155 = PLANE ( 'NONE',  #106 ) ;
#156 = AXIS2_PLACEMENT_3D ( 'NONE', #292, #51, #233 ) ;
#157 = EDGE_LOOP ( 'NONE', ( #18, #256 ) ) ;
#158 = CALENDAR_DATE ( 2020, 23, 12 ) ;
#159 = ORIENTED_EDGE ( 'NONE', *, *, #169, .F. ) ;
#160 = DIRECTION ( 'NONE',  ( -1.000000000000000000, -0.000000000000000000, -0.000000000000000000 ) ) ;
#161 = LINE ( 'NONE', #26, #28 ) ;
#162 = AXIS2_PLACEMENT_3D ( 'NONE', #238, #208, #76 ) ;
#163 = CARTESIAN_POINT ( 'NONE',  ( -1.614212418857619014, 0.000000000000000000, 0.000000000000000000 ) ) ;
#164 = FACE_OUTER_BOUND ( 'NONE', #139, .T. ) ;
#165 = LINE ( 'NONE', #104, #136 ) ;
#166 = DIRECTION ( 'NONE',  ( 0.000000000000000000, 0.000000000000000000, 1.000000000000000000 ) ) ;
#167 = EDGE_CURVE ( 'NONE', #174, #125, #298, .T. ) ;
#168 = PERSON_AND_ORGANIZATION ( #99, #187 ) ;
#169 = EDGE_CURVE ( 'NONE', #80, #113, #66, .T. ) ;
#170 = DIRECTION ( 'NONE',  ( 0.000000000000000000, 0.000000000000000000, 1.000000000000000000 ) ) ;
#171 = VECTOR ( 'NONE', #41, 1000.000000000000000 ) ;
#172 = DIRECTION ( 'NONE',  ( 0.000000000000000000, 0.000000000000000000, -1.000000000000000000 ) ) ;
#173 = DIRECTION ( 'NONE',  ( 0.000000000000000000, 0.000000000000000000, -1.000000000000000000 ) ) ;
#174 = VERTEX_POINT ( 'NONE', #289 ) ;
#175 = ADVANCED_FACE ( 'NONE', ( #235 ), #318, .F. ) ;
#176 = ORIENTED_EDGE ( 'NONE', *, *, #169, .T. ) ;
#177 = ORIENTED_EDGE ( 'NONE', *, *, #54, .T. ) ;
#178 = AXIS2_PLACEMENT_3D ( 'NONE', #200, #39, #23 ) ;
#179 = DIRECTION ( 'NONE',  ( 0.000000000000000000, 0.000000000000000000, 1.000000000000000000 ) ) ;
#180 = CARTESIAN_POINT ( 'NONE',  ( -2.999999999999999556, 0.000000000000000000, 6.349999999999999645 ) ) ;
#181 = PLANE ( 'NONE',  #27 ) ;
#182 = CARTESIAN_POINT ( 'NONE',  ( 1.500000000000000444, 6.349999999999999645, 0.000000000000000000 ) ) ;
#183 = CARTESIAN_POINT ( 'NONE',  ( -2.999999999999999556, 0.000000000000000000, 0.000000000000000000 ) ) ;
#184 = ORIENTED_EDGE ( 'NONE', *, *, #269, .T. ) ;
#185 = LOCAL_TIME ( 9, 23, 48.00000000000000000, #83 ) ;
#186 = PERSON_AND_ORGANIZATION_ROLE ( 'design_supplier' ) ;
#187 = ORGANIZATION ( 'UNSPECIFIED', 'UNSPECIFIED', '' ) ;
#188 = ORIENTED_EDGE ( 'NONE', *, *, #53, .F. ) ;
#189 = CC_DESIGN_PERSON_AND_ORGANIZATION_ASSIGNMENT ( #14, #321, ( #96 ) ) ;
#190 = CALENDAR_DATE ( 2020, 23, 12 ) ;
#191 = DIRECTION ( 'NONE',  ( -1.000000000000000000, -0.000000000000000000, -0.000000000000000000 ) ) ;
#192 = DIRECTION ( 'NONE',  ( -1.000000000000000000, -0.000000000000000000, -0.000000000000000000 ) ) ;
#193 = EDGE_LOOP ( 'NONE', ( #121, #215 ) ) ;
#194 = CARTESIAN_POINT ( 'NONE',  ( -1.500000000000000444, 6.349999999999999645, 0.000000000000000000 ) ) ;
#195 = AXIS2_PLACEMENT_3D ( 'NONE', #183, #69, #47 ) ;
#196 = CARTESIAN_POINT ( 'NONE',  ( -1.614212418857619014, 0.000000000000000000, 6.349999999999999645 ) ) ;
#197 = ADVANCED_FACE ( 'NONE', ( #102 ), #316, .T. ) ;
#198 = CARTESIAN_POINT ( 'NONE',  ( 1.500000000000000888, 0.000000000000000000, 6.349999999999999645 ) ) ;
#199 = APPROVAL_STATUS ( 'not_yet_approved' ) ;
#200 = CARTESIAN_POINT ( 'NONE',  ( -1.614212418857619014, 0.000000000000000000, 0.000000000000000000 ) ) ;
#201 = CC_DESIGN_PERSON_AND_ORGANIZATION_ASSIGNMENT ( #114, #295, ( #147 ) ) ;
#202 = DIRECTION ( 'NONE',  ( -1.000000000000000000, 0.000000000000000000, -0.000000000000000000 ) ) ;
#203 = CIRCLE ( 'NONE', #101, 12.69999999999999929 ) ;
#204 = CARTESIAN_POINT ( 'NONE',  ( -1.614212418857619014, 0.000000000000000000, 0.000000000000000000 ) ) ;
#205 = ADVANCED_FACE ( 'NONE', ( #164 ), #68, .F. ) ;
#206 = LOCAL_TIME ( 9, 23, 48.00000000000000000, #64 ) ;
#207 = CYLINDRICAL_SURFACE ( 'NONE', #82, 6.349999999999999645 ) ;
#208 = DIRECTION ( 'NONE',  ( -1.000000000000000000, -0.000000000000000000, -0.000000000000000000 ) ) ;
#209 = DIRECTION ( 'NONE',  ( -1.000000000000000000, -0.000000000000000000, -0.000000000000000000 ) ) ;
#210 = ADVANCED_FACE ( 'NONE', ( #6 ), #262, .F. ) ;
#211 = PERSON_AND_ORGANIZATION ( #99, #187 ) ;
#212 = VECTOR ( 'NONE', #49, 1000.000000000000000 ) ;
#213 = EDGE_LOOP ( 'NONE', ( #148, #42 ) ) ;
#214 = DATE_AND_TIME ( #190, #324 ) ;
#215 = ORIENTED_EDGE ( 'NONE', *, *, #167, .T. ) ;
#216 = CARTESIAN_POINT ( 'NONE',  ( 1.500000000000000888, 0.000000000000000000, 0.000000000000000000 ) ) ;
#217 = VERTEX_POINT ( 'NONE', #129 ) ;
#218 = ORIENTED_EDGE ( 'NONE', *, *, #135, .T. ) ;
#219 = DATE_TIME_ROLE ( 'creation_date' ) ;
#220 = DIRECTION ( 'NONE',  ( 1.000000000000000000, 0.000000000000000000, 0.000000000000000000 ) ) ;
#221 = DIRECTION ( 'NONE',  ( 0.000000000000000000, 0.000000000000000000, -1.000000000000000000 ) ) ;
#222 = CC_DESIGN_APPROVAL ( #8, ( #237 ) ) ;
#223 = CARTESIAN_POINT ( 'NONE',  ( -2.999999999999999556, 7.776507174585692163E-16, -6.349999999999999645 ) ) ;
#224 = AXIS2_PLACEMENT_3D ( 'NONE', #306, #274, #331 ) ;
#225 = DATE_AND_TIME ( #158, #267 ) ;
#226 = VERTEX_POINT ( 'NONE', #71 ) ;
#227 = EDGE_LOOP ( 'NONE', ( #84, #90, #263, #254 ) ) ;
#228 = ADVANCED_FACE ( 'NONE', ( #234 ), #5, .T. ) ;
#229 = COORDINATED_UNIVERSAL_TIME_OFFSET ( 8, 0, .AHEAD. ) ;
#230 = DIRECTION ( 'NONE',  ( -1.000000000000000000, -0.000000000000000000, -0.000000000000000000 ) ) ;
#231 = LOCAL_TIME ( 9, 23, 48.00000000000000000, #141 ) ;
#232 = CC_DESIGN_PERSON_AND_ORGANIZATION_ASSIGNMENT ( #211, #186, ( #237 ) ) ;
#233 = DIRECTION ( 'NONE',  ( 0.000000000000000000, 0.000000000000000000, 1.000000000000000000 ) ) ;
#234 = FACE_OUTER_BOUND ( 'NONE', #330, .T. ) ;
#235 = FACE_OUTER_BOUND ( 'NONE', #255, .T. ) ;
#236 = EDGE_CURVE ( 'NONE', #312, #217, #203, .T. ) ;
#237 = PRODUCT_DEFINITION_FORMATION_WITH_SPECIFIED_SOURCE ( 'ANY', '', #147, .NOT_KNOWN. ) ;
#238 = CARTESIAN_POINT ( 'NONE',  ( 3.000000000000000888, 0.000000000000000000, 0.000000000000000000 ) ) ;
#239 = DATE_AND_TIME ( #36, #185 ) ;
#240 = APPROVAL ( #199, 'UNSPECIFIED' ) ;
#241 = EDGE_CURVE ( 'NONE', #293, #2, #296, .T. ) ;
#242 = AXIS2_PLACEMENT_3D ( 'NONE', #146, #250, #59 ) ;
#243 = EDGE_CURVE ( 'NONE', #125, #174, #137, .T. ) ;
#244 = APPROVAL ( #326, 'UNSPECIFIED' ) ;
#245 = ORIENTED_EDGE ( 'NONE', *, *, #309, .T. ) ;
#246 = APPROVAL_DATE_TIME ( #56, #244 ) ;
#247 = PERSON_AND_ORGANIZATION ( #99, #187 ) ;
#248 = ORIENTED_EDGE ( 'NONE', *, *, #46, .F. ) ;
#249 = CIRCLE ( 'NONE', #319, 6.349999999999999645 ) ;
#250 = DIRECTION ( 'NONE',  ( -1.000000000000000000, -0.000000000000000000, -0.000000000000000000 ) ) ;
#251 = ORIENTED_EDGE ( 'NONE', *, *, #140, .T. ) ;
#252 = DIRECTION ( 'NONE',  ( -1.000000000000000000, -0.000000000000000000, -0.000000000000000000 ) ) ;
#253 = ORIENTED_EDGE ( 'NONE', *, *, #167, .F. ) ;
#254 = ORIENTED_EDGE ( 'NONE', *, *, #140, .F. ) ;
#255 = EDGE_LOOP ( 'NONE', ( #115, #218, #251, #297 ) ) ;
#256 = ORIENTED_EDGE ( 'NONE', *, *, #307, .F. ) ;
#257 = DIRECTION ( 'NONE',  ( -1.000000000000000000, -0.000000000000000000, -0.000000000000000000 ) ) ;
#258 = DIRECTION ( 'NONE',  ( -1.000000000000000000, -0.000000000000000000, -0.000000000000000000 ) ) ;
#259 = AXIS2_PLACEMENT_3D ( 'NONE', #123, #120, #173 ) ;
#260 = CARTESIAN_POINT ( 'NONE',  ( -1.614212418857619014, 0.000000000000000000, 0.000000000000000000 ) ) ;
#261 = EDGE_CURVE ( 'NONE', #280, #226, #288, .T. ) ;
#262 = CYLINDRICAL_SURFACE ( 'NONE', #110, 6.349999999999999645 ) ;
#263 = ORIENTED_EDGE ( 'NONE', *, *, #307, .T. ) ;
#264 = AXIS2_PLACEMENT_3D ( 'NONE', #61, #192, #166 ) ;
#265 = FACE_OUTER_BOUND ( 'NONE', #227, .T. ) ;
#266 = CIRCLE ( 'NONE', #242, 12.69999999999999929 ) ;
#267 = LOCAL_TIME ( 9, 23, 48.00000000000000000, #229 ) ;
#268 = CC_DESIGN_APPROVAL ( #244, ( #96 ) ) ;
#269 = EDGE_CURVE ( 'NONE', #312, #80, #165, .T. ) ;
#270 = APPROVAL_ROLE ( '' ) ;
#271 = COORDINATED_UNIVERSAL_TIME_OFFSET ( 8, 0, .AHEAD. ) ;
#272 = CARTESIAN_POINT ( 'NONE',  ( -3.000000000000000000, 6.349999999999999645, 0.000000000000000000 ) ) ;
#273 = ORIENTED_EDGE ( 'NONE', *, *, #46, .T. ) ;
#274 = DIRECTION ( 'NONE',  ( 0.000000000000000000, 0.000000000000000000, 1.000000000000000000 ) ) ;
#275 = AXIS2_PLACEMENT_3D ( 'NONE', #1, #276, #332 ) ;
#276 = DIRECTION ( 'NONE',  ( -1.000000000000000000, 0.000000000000000000, -0.000000000000000000 ) ) ;
#277 = ORIENTED_EDGE ( 'NONE', *, *, #54, .F. ) ;
#278 = ADVANCED_FACE ( 'NONE', ( #265 ), #207, .F. ) ;
#279 = EDGE_LOOP ( 'NONE', ( #253, #138, #177, #153 ) ) ;
#280 = VERTEX_POINT ( 'NONE', #285 ) ;
#281 = DATE_AND_TIME ( #124, #206 ) ;
#282 = AXIS2_PLACEMENT_3D ( 'NONE', #163, #3, #130 ) ;
#283 = ORIENTED_EDGE ( 'NONE', *, *, #243, .F. ) ;
#284 = CC_DESIGN_PERSON_AND_ORGANIZATION_ASSIGNMENT ( #168, #108, ( #237 ) ) ;
#285 = CARTESIAN_POINT ( 'NONE',  ( -1.500000000000000444, 0.000000000000000000, 6.349999999999999645 ) ) ;
#286 = APPROVAL_PERSON_ORGANIZATION ( #122, #240, #43 ) ;
#287 = FACE_OUTER_BOUND ( 'NONE', #213, .T. ) ;
#288 = CIRCLE ( 'NONE', #11, 6.349999999999999645 ) ;
#289 = CARTESIAN_POINT ( 'NONE',  ( 3.000000000000000888, 7.776507174585692163E-16, -6.349999999999999645 ) ) ;
#290 = DIRECTION ( 'NONE',  ( 0.000000000000000000, 0.000000000000000000, 1.000000000000000000 ) ) ;
#291 = APPROVAL_PERSON_ORGANIZATION ( #91, #8, #323 ) ;
#292 = CARTESIAN_POINT ( 'NONE',  ( 3.000000000000000888, 0.000000000000000000, 0.000000000000000000 ) ) ;
#293 = VERTEX_POINT ( 'NONE', #180 ) ;
#294 = ORIENTED_EDGE ( 'NONE', *, *, #74, .F. ) ;
#295 = PERSON_AND_ORGANIZATION_ROLE ( 'design_owner' ) ;
#296 = CIRCLE ( 'NONE', #195, 6.349999999999999645 ) ;
#297 = ORIENTED_EDGE ( 'NONE', *, *, #241, .T. ) ;
#298 = CIRCLE ( 'NONE', #162, 6.349999999999999645 ) ;
#299 = CARTESIAN_POINT ( 'NONE',  ( 3.000000000000000000, 1.555301434917138433E-15, -12.69999999999999929 ) ) ;
#300 = DIRECTION ( 'NONE',  ( -1.000000000000000000, -0.000000000000000000, -0.000000000000000000 ) ) ;
#301 = FACE_OUTER_BOUND ( 'NONE', #308, .T. ) ;
#302 = ADVANCED_FACE ( 'NONE', ( #287 ), #181, .F. ) ;
#303 = CC_DESIGN_DATE_AND_TIME_ASSIGNMENT ( #214, #219, ( #96 ) ) ;
#304 = DIRECTION ( 'NONE',  ( 1.000000000000000000, 0.000000000000000000, 0.000000000000000000 ) ) ;
#305 = CARTESIAN_POINT ( 'NONE',  ( -3.000000000000000000, 0.000000000000000000, 12.69999999999999929 ) ) ;
#306 = CARTESIAN_POINT ( 'NONE',  ( 0.000000000000000000, 0.000000000000000000, 0.000000000000000000 ) ) ;
#307 = EDGE_CURVE ( 'NONE', #2, #293, #325, .T. ) ;
#308 = EDGE_LOOP ( 'NONE', ( #273, #176 ) ) ;
#309 = EDGE_CURVE ( 'NONE', #88, #328, #15, .T. ) ;
#310 = ORIENTED_EDGE ( 'NONE', *, *, #103, .F. ) ;
#311 = ORIENTED_EDGE ( 'NONE', *, *, #269, .F. ) ;
#312 = VERTEX_POINT ( 'NONE', #299 ) ;
#313 = DIRECTION ( 'NONE',  ( 0.000000000000000000, 0.000000000000000000, 1.000000000000000000 ) ) ;
#314 = CARTESIAN_POINT ( 'NONE',  ( 3.000000000000000000, 0.000000000000000000, 0.000000000000000000 ) ) ;
#315 = CC_DESIGN_SECURITY_CLASSIFICATION ( #70, ( #237 ) ) ;
#316 = CYLINDRICAL_SURFACE ( 'NONE', #93, 12.69999999999999929 ) ;
#317 = CC_DESIGN_DATE_AND_TIME_ASSIGNMENT ( #281, #97, ( #70 ) ) ;
#318 = CYLINDRICAL_SURFACE ( 'NONE', #282, 6.349999999999999645 ) ;
#319 = AXIS2_PLACEMENT_3D ( 'NONE', #216, #191, #170 ) ;
#320 = DIRECTION ( 'NONE',  ( -1.000000000000000000, -0.000000000000000000, -0.000000000000000000 ) ) ;
#321 = PERSON_AND_ORGANIZATION_ROLE ( 'creator' ) ;
#322 = EDGE_LOOP ( 'NONE', ( #310, #35 ) ) ;
#323 = APPROVAL_ROLE ( '' ) ;
#324 = LOCAL_TIME ( 9, 23, 48.00000000000000000, #271 ) ;
#325 = CIRCLE ( 'NONE', #264, 6.349999999999999645 ) ;
#326 = APPROVAL_STATUS ( 'not_yet_approved' ) ;
#327 = CARTESIAN_POINT ( 'NONE',  ( -1.614212418857619014, 0.000000000000000000, 12.69999999999999929 ) ) ;
#328 = VERTEX_POINT ( 'NONE', #57 ) ;
#329 = FACE_OUTER_BOUND ( 'NONE', #24, .T. ) ;
#330 = EDGE_LOOP ( 'NONE', ( #134, #184, #248, #188 ) ) ;
#331 = DIRECTION ( 'NONE',  ( 1.000000000000000000, 0.000000000000000000, 0.000000000000000000 ) ) ;
#332 = DIRECTION ( 'NONE',  ( -0.000000000000000000, 0.000000000000000000, 1.000000000000000000 ) ) ;
#333 = AXIS2_PLACEMENT_3D ( 'NONE', #145, #300, #149 ) ;
#334 = CARTESIAN_POINT ( 'NONE',  ( -3.000000000000000000, 1.555301434917138433E-15, -12.69999999999999929 ) ) ;
#335 = SHAPE_DEFINITION_REPRESENTATION ( #119, #132 ) ;
ENDSEC;
END-ISO-10303-21;
